Song name
# A B C D E F G H I J K L M N O P Q R S T U V W X Y Z

Dave Dee Dozy Beaky Mick And Tich - Hold Tight tab

Dave Dee, Dozy, Beaky, Mick & Tich: Hold Tight

Tabbed by Julian Habenicht

E-Mail: letszapago@gmail.com


Chord progession above the tab.

      E        A       B     A     E      A      B      A

e-5-5/6b7~-b7~-4b5~-b5~-------------------------------------|
B----------------------4b~-4/5-7-5--------------------------|
G----------------------------------3b4-b4-1b2-b2------------|
D------------------------------------------------1~-1/2-4-2-|
A-----------------------------------------------------------|
E-----------------------------------------------------------|

   E        A        B     A      E   

e-/6b7~-b7~-4b5~-b5~----------------------------------------|
B--------------------4b~-4/5-7-5----------------------------|
G-----------------------------------------------------------|
D---------------------------------2-------------------------|
A---------------------------------2-------------------------|
E---------------------------------0-------------------------|


Personally, I think it's the best sounding solo ever....;)

Have fun!!!
Tap to rate this tab
# A B C D E F G H I J K L M N O P Q R S T U V W X Y Z