Song name
# A B C D E F G H I J K L M N O P Q R S T U V W X Y Z

Dave Dee Dozy Beaky Mick And Tich - Okay chords

Highlighted       Show chord diagrams
----------------------------------------------------------------------------
		     OKAY! - dave dee, dozy, beaky, mick & tich 
----------------------------------------------------------------------------
Tabbed by: dyego22
Email: diegoelsanto_2@hotmail.com

Tuning:

e|---------------------------------------------|
B|---5-6-5-3-2-3-----2-----2-----2-----2-------|
G|-2-------------2-2---2-----2-----2-----2-----| (play the arpeggio
D|-----------------------2-----2-----2-----2---|  part slightly)
A|---------------------------------------------|
E|---------------------------------------------|

A7 (if you want)

D
All the world has got its worries.
Every night has got its dream.
            G
But it's Okay! With your arms around me
  D
Okay! Now your love has found me
 A                              D
Okay! When I feel I'm close to you
                              G
And you, tell me that it's Okay!
And I'll never ever leave you fonder,
 D  
You say you were meant for me
                      A
We'll be together some day
                                     D-A-D
And our whole wide world will seem okaaaaaaaaaaay.

D
Time for lovers have no meaning.
I want all the world to know,
            G
That I'm Okay! With your arms around me
   D
Okay! Now your love has found me
  A                              D-A-D
Okay! When I feel I'm close to yoooooooooou.

e|---------------------------------------------|
B|---5-6-5-3-2-3-----2-----2-----2-----2-------|
G|-2-------------2-2---2-----2-----2-----2-----| (play the arpeggio
D|-----------------------2-----2-----2-----2---|  part slightly)
A|---------------------------------------------|
E|---------------------------------------------|
A7

D
Why can't good things last for always?
Why must parting end our dreams?
         G
It was Okay! Till he came between us
D
Okay! Everything that's been, was
 A                                     D
Okay! There is nothing left for me to do
                   G
But to tell you Okay!
                                                   D
Go and live your life and let him treat you his way.
                                                A
But I'll spend my days and hoping maybe one day,
                                                 D-A-D
You'll come running back, and show me that it's okaaay!

e|--------------|
B|-5-3-2-5-3-2--|
G|--------------| 
D|--------------|  
A|--------------|
E|--------------|
         D
O - kay!
Tap to rate this tab
 
# A B C D E F G H I J K L M N O P Q R S T U V W X Y Z