Song name
# A B C D E F G H I J K L M N O P Q R S T U V W X Y Z

Dave Dee Dozy Beaky Mick And Tich - Touch Me Touch Me chords

Highlighted       Show chord diagrams
-------------------------------------------------------------------------------
	     Touch me, Touch me - dave dee, dozy, beaky, mick & tich
-------------------------------------------------------------------------------
Tabbed by: dyego22
Email: diegoelsanto_2@hotmail.com

Tuning: standard

Intro C           G
e|------------8-7--|    -8-7-8-7-8-7--------------------|
B|--5---5-5-6------|    --------------------------------|
G|-----------------|    --------------------------------|
D|-----------------| x2 --------------------------------|
A|-----------------|    --------------------------------|
E|-----------------|    --------------------------------|

C
Life has lost its meaning
F
Losing time in dreaming
Dm
Now I know I've been
G
Infatuated, left frustrated

C
You pass by, not caring
F
I'm tongue-tied, preparing
Dm
Speeches, then not daring
G
To approach you or reproach you

F
Touch me, touch me
G
Sad how much
F
We lost in parting
G
Can't find my way till once more you
F                   G
Touch me, touch me, love was such
F                        G
We had to make or break it
Let's make it, let's touch

C
Kisses, quick embraces
F
Laughter lit our faces
Dm
When we'd meet someplace, yes
G
Secretly you'd reach for me and

F
Touch me, touch me
G
Sad how much
F
We lost in parting
G
Can't find my way till once more you
F                   G
Touch me, touch me, love was such
F                        G
We had to make or break it
Let's make it, let's touch

           C-G                    F-G (i think)
e|------------8-7----|    ---------12-10-----------12-15v-|
B|--5---5-5-6--------|    --8-8-10--------12-12-15--------|
G|-------------------|    --------------------------------|
D|-------------------| x2 --------------------------------|
A|-------------------|    --------------------------------|
E|-------------------|    --------------------------------|
F                   G
Touch me, touch me, love was such
F                        G
We had to make or break it

C
My mind won't forget you
F
And the way I'd let you
Dm
Lead me on, I'd get you
G
Going with me and you'd give me

C
Kisses, quick embraces
F
Laughter lit our faces
Dm
When we'd meet someplace, yes
G
Secretly you'd reach for me and

F
Touch me, touch me
G
Sad how much
F
We lost in parting
G
Can't find my way till once more you
F                   G
Touch me, touch me, love was such
F                        G
We had to make or break it
Let's make it, make it            C
Let's make it, make it, let's touch

Tap to rate this tab
# A B C D E F G H I J K L M N O P Q R S T U V W X Y Z