Song name
# A B C D E F G H I J K L M N O P Q R S T U V W X Y Z

Dave Dee Dozy Beaky Mick And Tich - Bend It tab

Dave Dee Dozy Beaky Mick and Tich   Bend it
Tabbed by Fepo


This is not my best TAB, but its not easy to figure out the Guitar Parts.
The Speed of this songs changes often.
The Mandolin Parts have I outfigured with my guitar.
So we have not only the Chords ;)
Do not be so hard if you rate the song.
Try the best out there. ;)


Tuning: Standard E A D G B e


e |------------------------------------------|
B |------------------------------------------|
G |------------------------------------------|
D |-16s11---14s9----12s7----11---------------|
A |----------------------------10------------|
E |------------------------------------------|

e |------2------2------2------2--------------|
B |------3------3------3------3--------------|
G |------2------2------2------2--------------|
D |---0------0------0------0-----------------|
A |------------------------------------------|
E |------------------------------------------|

e |------3------3------3------3--------------|
B |------3------3------3------3--------------|
G |------------------------------------------|
D |------------------------------------------|
A |------2------2------2------2--------------|
E |---3------3------3------3-----------------|

e |------2------2------2------2--------------|
B |------3------3------3------3--------------|
G |------2------2------2------2--------------|
D |---0------0------0------0-----------------|
A |------------------------------------------|
E |------------------------------------------|

e |------3------3------3------3--------------|
B |------3------3------3------3--------------|
G |------------------------------------------|
D |------------------------------------------|
A |------2------2------2------2--------------|
E |---3------3------3------3-----------------|

e |------------------------------------------|
B |------2------2------2------2--------------|
G |------2------2------2------2--------------|
D |------2------2------2------2--------------|
A |---0------0------0------0-----------------|
E |------------------------------------------|




e |------------------------------------------|
B |------------------------------------------|
G |------------------------------------------|
D |-16s11---14s9----12s7----11---------------|
A |----------------------------10------------|
E |------------------------------------------|








e |------2------2------2------2--------------|
B |------3------3------3------3--------------|
G |------2------2------2------2--------------|
D |---0------0------0------0-----------------|
A |------------------------------------------|
E |------------------------------------------|

e |------3------3------3------3--------------|
B |------3------3------3------3--------------|
G |------------------------------------------|
D |------------------------------------------|
A |------2------2------2------2--------------|
E |---3------3------3------3-----------------|

e |------2------2------2------2--------------|
B |------3------3------3------3--------------|
G |------2------2------2------2--------------|
D |---0------0------0------0-----------------|
A |------------------------------------------|
E |------------------------------------------|

e |------3------3------3------3--------------|
B |------3------3------3------3--------------|
G |------------------------------------------|
D |------------------------------------------|
A |------2------2------2------2--------------|
E |---3------3------3------3-----------------|

e |------------------------------------------|
B |------2------2------2------2--------------|
G |------2------2------2------2--------------|
D |------2------2------2------2--------------|
A |---0------0------0------0-----------------|
E |------------------------------------------|

e |------------------------------------------|
B |------------------------------------------|
G |------------------------------------------|
D |-16s11---14s9----12s7----11---------------|
A |----------------------------10------------|
E |------------------------------------------|





SOLO:

e |------------------------------------------|
B |------------------7-8-7---7-8--7--8-------|
G |-14--14-11--11--7-------------------------|
D |------------------------------------------|
A |------------------------------------------|
E |------------------------------------------|


e |------------------------------------------|
B |-12-8--8-----7-8-7---7-8--7--8------------|
G |----------7-------------------------------|
D |------------------------------------------|
A |------------------------------------------|
E |------------------------------------------|

e |------------------------------------------|
B |------------------7-8-7---7-8--7--8-------|
G |-14--14-11--11--7-------------------------|
D |------------------------------------------|
A |------------------------------------------|
E |------------------------------------------|


e |------------------------------------------|
B |-12-8--8-----7-8-7---7-8--7--8------------|
G |----------7-------------------------------|
D |------------------------------------------|
A |------------------------------------------|
E |------------------------------------------|


e |------------------------------------------------------|
B |------------------------------------------------------|
G |--14--16-16-16-14--16-16-16-14--16-16-16-14--16-16-16-|
D |------------------------------------------------------|
A |------------------------------------------------------|
E |------------------------------------------------------|

e |------------------------------------------------------|
B |--12--14-14-14-12--14-14-14-12--14-14-14-12--14-14-14-|
G |------------------------------------------------------|
D |------------------------------------------------------|
A |------------------------------------------------------|
E |------------------------------------------------------|

e |------------------------------------------|
B |------------------------------------------|
G |------------------------------------------|
D |-16s11---14s9----12s7----11---------------|
A |----------------------------10------------|
E |------------------------------------------|







e |------2------2------2------2--------------|
B |------3------3------3------3--------------|
G |------2------2------2------2--------------|
D |---0------0------0------0-----------------|
A |------------------------------------------|
E |------------------------------------------|

e |------3------3------3------3--------------|
B |------3------3------3------3--------------|
G |------------------------------------------|
D |------------------------------------------|
A |------2------2------2------2--------------|
E |---3------3------3------3-----------------|








e |---------------------------------------------------------|
B |--9--10-10-10--9--10-10-10--9--10-10-10--9-10-10-10------|
G |---------------------------------------------------------|
D |---------------------------------------------------------|
A |---------------------------------------------------------|
E |---------------------------------------------------------|


e |-------------------------------------------------------|
B |-11-12-12-12-12--11-12-12-12--11-12-12-12--11-12-12-12-|
G |-------------------------------------------------------|
D |-------------------------------------------------------|
A |-------------------------------------------------------|
E |-------------------------------------------------------|

e |---------------------------------------------------------|
B |--9--10-10-10--9--10-10-10--9--10-10-10--9-10-10-10------|
G |---------------------------------------------------------|
D |---------------------------------------------------------|
A |---------------------------------------------------------|
E |---------------------------------------------------------|


e |-------------------------------------------------------|
B |-11-12-12-12-12--11-12-12-12--11-12-12-12--11-12-12-12-|
G |-------------------------------------------------------|
D |-------------------------------------------------------|
A |-------------------------------------------------------|
E |-------------------------------------------------------|

e |---------------------------------------------------------|
B |--9--10-10-10--9--10-10-10--9--10-10-10--9-10-10-10------|
G |---------------------------------------------------------|
D |---------------------------------------------------------|
A |---------------------------------------------------------|
E |---------------------------------------------------------|



e |-------------------------------------------------------|
B |-11-12-12-12-12--11-12-12-12--11-12-12-12--11-12-12-12-|
G |-------------------------------------------------------|
D |-------------------------------------------------------|
A |-------------------------------------------------------|
E |-------------------------------------------------------|


e |----2-------------------|
B |----3-------------------|
G |----2-------------------|
D |----0-------------------|
A |------------------------|
E |------------------------|
Tap to rate this tab
# A B C D E F G H I J K L M N O P Q R S T U V W X Y Z