Song name
# A B C D E F G H I J K L M N O P Q R S T U V W X Y Z

Dave Dobbyn - Welcome Home tab

Help us improve GuitareTab! Take a short survey!
This is my own interpretation of the melody of the song.
Key:
h=hammer on
p=pull off

Please leave your comments.

Verse.

e-----------------------------|
b-----------------------------|
g-----------------5-4-5-7-5-4-|
d---5-7-9-7-5---5-------------|
a-------------7---------------|
e-----------------------------|

Chorus.

e-----------------------------------------------------|
b--------------------------------------8h10p8---------|
g---9-7-----77-777---------9-7-----9-7--------9-------|
d-------9-7--------------------9-7--------------9-7-5-|
a------------------1010-10----------------------------|
e-----------------------------------------------------|

Tabbed by Eythan Prendergast from New Zealand.
Related for Welcome Home tab