Song name
# A B C D E F G H I J K L M N O P Q R S T U V W X Y Z

Dave Gahan - Dirty Sticky Floors Acoustic tab

Here is a acoustic tab for Dave Gahan's single "Dirty sticky floors".


\ - Slide down

Intro and lyrics:
E|--------------------|--------------------|
B|--------------------|--------------------|
G|-6-6-6-6-6--\4--4-4-|-4------------------|
D|-6-6-6-6-6--\4--4-4-|-4-4-4-4-4-4--\2----|
A|-4-4-4-4-4--\2--2-2-|-2-4-4-4-4-4--\2----|
E|--------------------|---2-2-2-2-2--\0----|

Chorus:
E|--------------------|--------------------|--------------------|
B|--------------------|--------------------|--------------------|
G|-6--6-(6)-6-(6)-6-6-|--------------------|--------------------|
D|-6--6-(6)-6-(6)-6-6-|-4--4-(4)-4-(4)-4-4-|-4--4-(4)-4-(4)-4-4-|
A|-4--4-(4)-4-(4)-4-4-|-4--4-(4)-4-(4)-6-4-|-4--4-(4)-4-(4)-4-4-|
E|--------------------|-6--6-(6)-6-(6)-6-6-|-2--2-(2)-2-(2)-2-2-|


That's all :)
If you have any questions, please e-mail me on: anyone_out_there@i.ua
Tap to rate this tab
# A B C D E F G H I J K L M N O P Q R S T U V W X Y Z