Song name
# A B C D E F G H I J K L M N O P Q R S T U V W X Y Z

Dave Grohl - If I Were Me tab

From the Sound City Soundtrack
Dave Grohl / Sound City Players - If I Were Me

As promised, I went through to get the rest of this.  Corrected part of the intro as well. 
Any input appreciated....Definitely not perfect, but pretty close....Enjoy     
vancampdan@hotmail.com

p = pull-off
h = hammer
s = Slide
<> = Harmonics


e|-----------------------------------------------------------|
B|-------------------------------------------------<12>------|
G|----<12>----------<12>------------<12>-----------<12>------|
D|----<12>----------<12>------------<12>---------------------|
A|------------9--------------9--------------9----------------|
E|-0------3s7--7-0-------3s7--7-0-------3s7---7-0------------|


e|-----------------------------------------------------------| _
B|-----------------------------------------------------------|  |
G|----<12>----------<12>------------<12>-----------<12>------|  |
D|----<12>----------<12>------------<12>-----------<12>------|  |
A|------------9--------------9--------------9----------------|  |
E|-0------3s7--7-0-------3s7--7-0-------3s7---7-0------------|  |
                                                                |
                                                                |
e|---------------------------<12>----------------------------|  |
B|-----------<12>------------<12>----------------------------|  |
G|-----------<12>--------------------------------------------|   }X2
D|---------------------9---------------12--------------------|  |
A|-----9--0--------3s7--7---------3s10-----------------------|  |
E|-3s7--7----------------8-----------------------------------|  |
                                                                |
                                                                |
e|-----------------------------------------------------------|  |
B|-----------------------------------------------------------|  |
G|----<12>----------<12>------------<12>---------------------| _|
D|----<12>----------<12>------------<12>---------------------|  
A|------------9--------------5-7-----------------------------|  
E|-0------3s7--7-0-------3s7-----0---------------------------| 

     C              Am            Em           G
e|---------------------------------------------3-------------|
B|----1--------------1-------------------------3-------------|_ 
G|----0--------------2------------0--------------------------| | 
D|-----------5-7-----2------------2--------------------------|  }x2 Chorus 
A|--3----3s7------0---------5-----------5-7------------5-----|_|  
E|----------------------3s7--7--0---3s7-----3------3s7--7----|

     C              Am                      
e|-----------------------------------------------------------|
B|----1--------------1p0-------------------------------------|
G|----0--------------2---------------------------------------| End of Chorus
D|-----------5-7-----2---------------------------------------|
A|--3----3s7------0------------------------------------------|  
E|-----------------------------------------------------------|
 
   Once upon a time,          The End......            (Repeat from Begining)


                                          
e|-----------------------------------------------------------|
B|-----------------------------------------------------------|
G|----------------------9-------------------9------11-12-----| 
D|-----------7---7s9-12--------------------------------------| Short solo 
A|---3s7-9-10-10-----------12--------------------------------| 
E|-----------------------------------------------------------|
                                                       (Repeat Chorus)



e|-----------------------------------------------------------| 
B|-----------------------------------------------------------|  
G|----<12>----------<12>------------<12>------------<12>-----| 
D|----<12>----------<12>------------<12>------------<12>-----| Outtro 
A|------------9--------------9----------------9--------------|  
E|-0------3s7--7-0-------3s7--7--0-------3s7---7-0-----------|

e|-----------------------------------------------------------| 
B|------------------------------------------<12>-------------|  
G|----------<12>------------<12>------------<12>-------------| 
D|----------<12>------------<12>-----------------------------| 
A|-----5-7-------------9----------------9---------------9----|  
E|--3s7----0-------3s7--7--0-------3s7---7-0--------3s7--7---|

e|-----------------------------------------------------------| 
B|-------------------------------------------------------<12>|  
G|----<12>---------<12>----------------------<12>--------<12>| 
D|----<12>---------<12>----------------------<12>------------| 
A|-----------5-7-----------5-7--------5-7-----------5-7------|  
E|-0------3s7---0-------3s7---0--0-3s7---7-0-----3s7----0----|




This is an alternate way of doing the chorus using hammer-ons instead of slides, a 
little easier to handle... not exactly sure which way Dave plays it.

     C              Am            Em           G
e|---------------------------------------------3-------------|
B|----1--------------1-------------------------3-------------|_ 
G|----0--------------2------------0--------------------------| | 
D|-----------5-7-----2-----0------2----0-2------------0------|  }x2 Chorus 
A|--3----3s7------0-----0h2-2-------0h2------------0h2-2-----|_|  
E|----------------------------0--------------3---------------|

     C              Am                      
e|-----------------------------------------------------------|
B|----1--------------1p0-------------------------------------|
G|----0--------------2---------------------------------------| End of Chorus
D|-----------5-7-----2---------------------------------------|
A|--3----3s7------0------------------------------------------|  
E|-----------------------------------------------------------|
 
   Once upon a time,          The End......
Tap to rate this tab
# A B C D E F G H I J K L M N O P Q R S T U V W X Y Z