Dave Hause - Heavy Heart tab

-------------------------------------------------------------------------------
                             HEAVY HEART - Dave Hause
-------------------------------------------------------------------------------


Tuning: Standard
Listen to the song for the strumming pattern

Verse: 
e|-2---------2--2------------------------------------------------------------|
B|-3------2--3--3--2---------------------------------------------------------|
G|-2------2--2--2--2---------------------------------------------------------|
D|-0------2--0--x--2---------------------------------------------------------|
A|--------0-----4--0---x4----------------------------------------------------|
E|---------------------------------------------------------------------------|

Chorus:
e|-------2-3--------------------------2---2-2-------------------2--3-------------------------------------------|
B|-------3-3--------------------------3---3-3-------------------3--3-------------------------------------------|
G|-4---4-2-0--------------------------2---2-2-4--------------4--2--0-------------------------------------------|
D|-4---4-0-0--------------------------0---0-x-4--------------4--0--0-------------------------------------------|
A|-2---2---2--------------------------------4-2--------------2-----2-------------------------------------------|
E|---------3-------------------------------------------------------3-------------------------------------------|
            Don't let your heavy heart         Drag you down.


I'm still trying to figure out the bridge. I'll update this is soon as I can. 




| /   slide up
| \   slide down
| h   hammer-on
| p   pull-off
| ~   vibrato
| +   harmonic
| x   Mute note
| b   Bend
| pb  Pre-bend
| br  Bend release
| pbr Pre-bend release
| brb Bend release bend

************************************
Tap to rate this tab
 
# A B C D E F G H I J K L M N O P Q R S T U V W X Y Z