Song name
# A B C D E F G H I J K L M N O P Q R S T U V W X Y Z

Dave Herrick - Jackass tab

Dave Herrick
Jackass
(WAH ON)
E---------------------
A---------------------
D---------------------
G-9-9-9-9-9-9-9-9-9-9-
B---------------------
D---------------------

E---------------------------------------------------------
A---------------------------------------------------------
D---------------------------------------------------------
G-0-------0-0--0-0---0-0-0-0----------0-0--0-0-0--0---0-0-
B-0-------0-0--0-0---0-0-0-0----------0-0--0-0-0--0---0-0-
D-0--x-x--0-0--0-0---0-0-0-0--x-x--xx-0-0--0-0-0--0---0-0-

E-------------------
A-------------------
D-9--7--11-11-11-11-
G-------------------
B-7--5--9--9--9--9--
D-------------------
Tap to rate this tab
# A B C D E F G H I J K L M N O P Q R S T U V W X Y Z