Song name
# A B C D E F G H I J K L M N O P Q R S T U V W X Y Z

Dave Herrick - Window tab

Dave Herrick - Window
Gregg (Gregg@yahoo.con)

E------------------
A------------------
D----11--------16^-
G-12------14-------
B------------------
E------------------
G------------------

E------------------------------------
A------------------------------------
D------------------------------------
G--------------------------------0--0
B-0--3--5-6--0--0-3--0--3p5-5----0--0
E-0--3--5-6--0--0-3--0--3p5-5----0--0
G-0--3--5-6--0--0-3--0--3p5-5----0--0

E-----------------
A-----------------
D-----------------
G-*7---*7---*7-*7-
B-----------------
E-----------------
G-----------------
Tap to rate this tab
 
# A B C D E F G H I J K L M N O P Q R S T U V W X Y Z