Song name
# A B C D E F G H I J K L M N O P Q R S T U V W X Y Z

Dave Herrick - Axes tab

Help us improve GuitareTab! Take a short survey!
Dave Herrick
Axes

BASS INTRO


E------------------------                  R
A------------------------                  E
D------------------------                  E
G-0-0--0-------0-0--0----                  C
B-0-0--0--3p5--0-0--0--7^                  H
D-0-0--0-------0-0--0----                  

E---------------------------------------------
A---------------------------------------------
D---------------------------------------------
G----------------------0----------2-2---41--1-
B--7-7-7-7-0-0-0-0-0-0-0--------3--1-4-3-0--9-
D-0-0-0-0-0-7-7-7-7-7--0------0---3---1-----1-

the solo and garbage is too long, mess around with this.
Related for Axes tab