Song name
# A B C D E F G H I J K L M N O P Q R S T U V W X Y Z

Dave Herrick - Ears Of The Cat tab

Dave Herrick
Ears Of The Cat

All guitars tuned half a step down and in drop D 

E-------------------------------------
A-------------------------------------
D-------------------------------------
G-0--0--0--0--3--3--3--3--1--1--0--0-0
B-0--0--0--0--3--3--3--3--1--1--0--0-0
D-------------3--3--3--3--1--1--0--0-0

E---------------------
A---------------------
D---------------------
G-2----2----2----2p5p2
B-3----3----3----3----
D---------------------that's all.
Tap to rate this tab
# A B C D E F G H I J K L M N O P Q R S T U V W X Y Z