Song name
# A B C D E F G H I J K L M N O P Q R S T U V W X Y Z

Dave Herrick - Vitamin A tab

Artist Dave Herrick
  Song Vitiman A
 Album Red Zebra


Intro with Wah
E------------------------------------------
A-----12-12--11----11--11--9---11-11-------
D-----11-11--11----11--11--9---11-11---15^-
G-----11-11--11----11--11--9---11-11-------
B-0----------------------------------------
D-0--------------0-------------------------


E-------------------------------------------------
A-------------------------------------------------
D-------------------------------------------------
G---------3---------3h5^---------3----------3-----
B---0p3p5-----0p3p5--------0p3p5------0p3p5---5^--
D-0---------0------------0----------0-------------


E----------------------------------------------------------
A--9-9-9-9-9-9-9-9----9^--------9-9-9-9-9-9-9-9----11--9^--
D--9-9-9-9-9-9-9-9----9^--------9-9-9-9-9-9-9-9----11--9^--
G--9-9-9-9-9-9-9-9----9^--------9-9-9-9-9-9-9-9----11--9^--
A----------------------------------------------------------
D-0-----------------0--------0-------------------0---------
Tap to rate this tab
# A B C D E F G H I J K L M N O P Q R S T U V W X Y Z