Song name
# A B C D E F G H I J K L M N O P Q R S T U V W X Y Z

Dave Herrick - Grape Juice tab

Band: Dave Herrick
Song: Grape Juice
Album: The Beast House

Drop D

e----------------------------------------------------------------
A----------------------------------------------------------------
D-x--x-----------------------------------------------------------
G-x--x--5--5--5--5--5--5--5--3---5----6-----3-0-5-0-5----0-0-0--0
B-x--x--3--3--3--3--3--3--3--3---5----6-----3-0-5-0-5----0-0-0--0
D-x--x-----------------------3---5----6-----3-0-5-0-5----0-0-0--0

e----------------------------------------------------------------
A----------------------------------------------------------------
D----------------------------------------------------------------
G-3--3--3--3--4--6--2--6--2--4-2--6--8--2--5--2-------8-3--7--3-9
B-3--3--3--3--4--6--2--6--2--4-2--6--8--2--5--2-------8-3--7--3-9
D-3--3--3--3--4--6--2--6--2--4-2--6--8--2--5--2--6p5--8-3--7--3-9

e------------------------------
A------------------------------
D-7-7-7-7-7-7-7-7-7-7-7-7-7-7-7
G-7-7-7-7-7-7-7-7-7-7-7-7-7-7-7
B-5-5-5-5-5-5-5-5-5-5-5-5-5-5-5
D-0-0-0-0-0-0-0-0-0-0-0-0-0-0-0
Tap to rate this tab
# A B C D E F G H I J K L M N O P Q R S T U V W X Y Z