Song name
# A B C D E F G H I J K L M N O P Q R S T U V W X Y Z

Dave Herrick - In Heat tab

Help us improve GuitareTab! Take a short survey!
Dave Herrick
In Heat

E-------------------------------
A-------------------------------
D-------------------------------
G-3-3-3-3-3-1-1-1-1-1-0-0-0-0-0-
B-3-3-3-3-3-1-1-1-1-1-0-0-0-0-0-
D-3-3-3-3-3-1-1-1-1-1-0-0-0-0-0-

E-------------
A-------------
D-------------
G-6----5-5----
B-6----5-5-7^-
D-6----5-5----

REALLY FUCKING FAST
E--------------------------------------------------------
A--------------------------------------------------------
D--------------------------------------------------------
G-0000000022222222000000005555555533333222255557774432100
B-0000000022222222000000005555555533333222255557774432100
D-0000000022222222000000005555555533333222255557774432100
Related for In Heat tab