Song name
# A B C D E F G H I J K L M N O P Q R S T U V W X Y Z

Dave Herrick - Policepigs tab

Dave Herrick
Police=Pigs

E-----------------------
A-----------------------
D-5-2-5-6-3-2-1-4-3-5-5-
G-4-2-5-7-8-2-5-7-3-5-7-
B-----------------------
D-----------------------

E---------------------------------------------------------
A---------------------------------------------------------
D---------------------------------------------------------
G-4-4-4-4-4-4-4-4-4-4-4-2-2-2-2-2-2-2-2-7-7-7-7-7-7-7-7-7-
B-2-2-2-2-2-2-2-2-2-2-2-2-2-2-2-2-2-2-2-7-7-7-7-7-7-7-7-7-
D-----------------------2-2-2-2-2-2-2-2-------------------
Tap to rate this tab
 
# A B C D E F G H I J K L M N O P Q R S T U V W X Y Z