Song name
# A B C D E F G H I J K L M N O P Q R S T U V W X Y Z

Dave Herrick - Yellow Crayon tab

dave herrick
Yellow Crayon

e-------------------------------
A-------------------------------
D-------------------------------
G-8-0-9-0-9-0-4-0-6-0-2-0-7-0-6-
B-------------------------------
D-------------------------------

e---------------------
A---------------------
D---------------------
G-0-3-2-4-3-2-4-3-2-4-
B-0-2-2-4-2-2-4-2-2-4-
D-0---2-4---2-4---2-4-

e-2-2-2-2-2-2-2-2-2-2-2-2-
A-3-3-3-3-3-3-3-3-3-3-3-3-
D-2-2-2-2-2-2-2-2-2-2-2-2-
G-------------------------
B-------------------------
D-------------------------
Tap to rate this tab
# A B C D E F G H I J K L M N O P Q R S T U V W X Y Z