Song name
# A B C D E F G H I J K L M N O P Q R S T U V W X Y Z

Dave Herrick - Bearhive tab

Dave Herrick - Bearhive

Intro/Verse: 
----------------------------------- 
----------------------------------- 
----------------------------------- 
-7-6-x-x-7-6-x-x-7-6-0-------------
-0-4-x-x-0-4-x-x-0-4-0------------- 
-0-4-x-x-0-4-x-x-0-4-0------------- 

Chorus: 
--------------------------------------------- 
--------------------------------------------- 
--------------------------------------------- 
5555555-/-888888888-\-00000------------------ 
5555555-/-888888888-\-00000------------------ 
5555555-/-888888888-\-00000------------------ 

Bridge: 
-------------------------------------- 
-------------------------------------- 
-------------------------------------- 
--6-6-6-6-6-7---7-7-7-7-7-8----------- 
-------------------------------------- 
--------------------------------------
Tap to rate this tab
# A B C D E F G H I J K L M N O P Q R S T U V W X Y Z