Song name
# A B C D E F G H I J K L M N O P Q R S T U V W X Y Z

Dave House - Stereo tab

-------------------------------------------------------------------------------
			     STEREO - Dave House
-------------------------------------------------------------------------------
Tabbed by: ianhr

Tuning: DGCFAD

Intro - strum these chords

D|-------------|
A|-------------|
F|-9--9--9--9--|
C|-7--0--0--0--|
G|-0--0--9--0--|
D|-------------|


Verse - strum these chords

   A   A/F#               E
D|-----------            ---|
A|-2---------            ---|
F|-2----2----   x4 then  -1-|
C|-2----2----            -2-|
G|-----------            -2-|
D|------2----            ---|


Chorus - same as intro

D|-------------|
A|-------------|
F|-9--9--9--9--|
C|-7--0--0--0--|
G|-0--0--9--0--|
D|-------------|


Order

Intro x 2
Verse x 1
Chorus x 4
Verse x 1
Chorus x 10


Lyrics

Something came up yesterday
Our conversation blocked my way
Another journey coming off the tracks
After crashing finding it's way back

Another fight, believe what I
am telling you know
As hard for me, as it was for you
I'm telling you know

The days are getting shorter now
I wonder how will things play out
Another person added to the cast
I can't believe this year's gone by so fast

Official Link: http://www.iknowdavehouse.co.uk
Tap to rate this tab
 
# A B C D E F G H I J K L M N O P Q R S T U V W X Y Z