Song name
# A B C D E F G H I J K L M N O P Q R S T U V W X Y Z

Dave House - Weeknights And Weekends tab

-------------------------------------------------------------------------------
		   Weeknights and Weekends - Dave House
-------------------------------------------------------------------------------
Tabbed by: ianhr

Tuning:DGCFAD

This song is finger-picked. I use my thumb to play the notes on the 6th string but if 
find it uncomfortable just find what works best for you.


Intro/Verse

D|-3p0---0--------0------0---|
A|-----1---1--------1------1-|
F|-----------0---------------|
C|---------------------------|
G|-3-----3------0------------|
D|--------------------1------|


Chorus

D|--1-----1----------1-----1---------1-----1---------1-----1-------|
A|----1-----1---1------1-----1---1-----1-----1---1-----1-----1---1-|
F|-----------------------------------------------------------------|
C|-----------------------------------------------------------------|
G|---------------------------------0-----0-----0-------------------|
D|1-----1-----1---3------3-----3-------------------1-----1-----1---|

Official Site: http://www.iknowdavehouse.co.uk
Tap to rate this tab
 
# A B C D E F G H I J K L M N O P Q R S T U V W X Y Z