Guitaretab - guitar tabs
Song name
# A B C D E F G H I J K L M N O P Q R S T U V W X Y Z

Dave Matthews Band - Round Round tab

Round & Round written by Dave Matthews

Tabbed by Brett Huntley

Verse
e----------------------------------------------------------------------------|
B--------2p------------------------------------------------------------------|
D-------------------------4----0---------------------------------0-----------|
G-----------------2------------------------2----0----------------------------|
A------------------------------------3--------------------2------------------|
E------------------------------------------------------3---------------------|

"Round and round the world goes round and round...."
[ Tab from: http://www.guitaretab.com/d/dave-matthews-band/108479.html ]
e----------------------------------------------------------------------------|
B----------------------------------------------------------------------------|
D-------4----------------6------------------------------5/4------------------|
G---------------5---------------------------5--------------------2/5p0-------|
A-------------------------------------4--------------------------------------|
E----------------------------------------------------------------------------|

End

e-----------------------------------------------------------------------------|
B--------2p-------------------------------------------------------------------|
D-------------------------4----0----------------------------------------------|
G-----------------2------------------------2----0-----------------------------|
A------------------------------------3--------------------2-------------------|
E---------------------------------------------------------3-------------------|
Related for Round Round tab
Advertisement will be closed in 10 seconds