Song name
# A B C D E F G H I J K L M N O P Q R S T U V W X Y Z

Dave Matthews Band - Say Goodbye tab

-------------------------------------------------------------------------------
            Say Goodbye (live at Luther) - Dave Matthews Band
----------------------------------------------------------------------------
Tabbed by: Jeff Rhodes
Email: jeff.rrhodes@gmail.com

Tuning: Standard

these are the basic tab/chords for the song, the strumming is slightly different than 
tabs read, you have to sort of know this version of the song to get the strumming right- 
really just playing the lowest note of each chord first, and then filling in a strumming rhythm

Verse 1
                              so here we are...
e|---------------------------------------------------------------------------|
B|---------------------------------------------------------------------------|
G|------6-----6h7---9---11-----6---------------------------------------------|
D|------7-----7-----9---12-----7---------------------------------------------|
A|------x-----x-----7----x-----x---------------------------------------------|
E|---5--5--5--5---------10--5--5---------------------------------------------|

     tonight...   ..together..outside..fire's bright...
e|---------------------------------------------------------------------------|
B|---------------------------------------------------------------------------|
G|------6-----6h7---9---------11-----------6---------------------------------|
D|------7-----7-----9---------12-----------7---------------------------------|
A|------x-----x-----7----------x-----------x---------------------------------|
E|---5--5--5--5---------------10--------5--5---------------------------------|

chorus:

e|----- ----- ----- -----|
B|-0--- -0--- -2--- -2---|
G|-4--- -4--- -2--- -2---|
D|-4--- -2--- -2--- -0---|
A|-2--- ----- -0--- -----|
E|----- -4--- ----- -2---|

the rest of the song is all just repeating verse 1 and the chorus in according parts
Tap to rate this tab
 
# A B C D E F G H I J K L M N O P Q R S T U V W X Y Z