Song name
# A B C D E F G H I J K L M N O P Q R S T U V W X Y Z

Dave Matthews Band - What You Are tab

I know this is right from seeing Dave play it live at a radio show...

Intro Riff 1
b----------------|
F#---12----------|
D----11-9--------|
A--9------12-11--|
E----------------|
B----------------|
On the cd version, its sounds like theres alot more going on,
but there's really not. Try and pick up a solo acoustic baritone
version if you can and you'll see what I mean.

Intro Riff 2
b-----------------|
F#----------------|
D--12-11--9--7-6--|
A-----------------|
E--10--9--7--5-4--|
B-----------------|

Verse
b-----
F#----
D-----
A--9--
E-----
B--7-- That's it. Then to Intro Riff 2, then Intro Riff 1.

Chorus
b-----------------------|
F#----------------------|
D--7--7-7--7--10-----6--|
A-----5-5--5------7-----|
E--5--3-x--x---8-----4--|
B-------6--3------5-----|

Bridge
b-----------|
F#----2-----|
D--4--2--1--|
A--4--2--2--|
E--2--0--2--|
B--------0--|
  F#  E  B
Tap to rate this tab
# A B C D E F G H I J K L M N O P Q R S T U V W X Y Z