Song name
# A B C D E F G H I J K L M N O P Q R S T U V W X Y Z

Dave Matthews Band - 36 tab

------------------------------------------------------------------------------

                            #36-Dave Matthews Band
------------------------------------------------------------------------------


tabbed by Drew
email-djb@tamaqua.net

throughout the whole song

    F           C
e---1-----------0----------|
B---1-----------1----------|
G---2-----------0----------|
D---3-----------2----------|
A---3-----------3----------|
E---1-----------0----------|


you can throw this sax solo/riff thing in if you want

e----5-8-3---5-10-8----5-8-3--13-12-10-8---------------|
B------------------------------------------------------|
G------------------------------------------------------|
D------------------------------------------------------|
A------------------------------------------------------|
E------------------------------------------------------|

end

e-13-12-10---13-12-10---13-12-10-------8----------------|
B-------------------------------------------------------|
G-------------------------------------------------------|
D-------------------------------------------------------|
A-------------------------------------------------------|
E-------------------------------------------------------|
Tap to rate this tab
# A B C D E F G H I J K L M N O P Q R S T U V W X Y Z