Song name
# A B C D E F G H I J K L M N O P Q R S T U V W X Y Z

Dave Matthews Band - Hold Me Down tab

-------------------------------------------------------------------------------
			     HOLD ME DOWN - Dave Matthews Band
-------------------------------------------------------------------------------
Tabbed by: Jacob Falls
Email: rosdower@email.com

Tuning: Standard
Intro/Chorus: Repeat 4x's for intro/ as many x's as needed for Chorus
e|---------------------------------------------------------------------------|
B|---------------------------------------------------------------------------|
G|-11--9--12--7--7-----------------------------------------------------------|
D|---------------------------------------------------------------------------|
A|---------------------------------------------------------------------------|
E|-10--9--12--7--6-----------------------------------------------------------|
Verse 2x's| Fill to Chorus:
e|--------------|------------------------------------------------------------|
B|--------------|------------------------------------------------------------|
G|-6--7--6--4---|-6--11--2--4------------------------------------------------|
D|--------------|------------------------------------------------------------|
A|--------------|------------------------------------------------------------|
E|-5--7--5--3---|-5--10--2--3------------------------------------------------|

The whole song is strummed like Grey Street (if that helps). 

| /  slide up
| \  slide down
| h  hammer-on
| p  pull-off
| ~  vibrato
| +  harmonic
| x  Mute note
===============================================================================
Tap to rate this tab
# A B C D E F G H I J K L M N O P Q R S T U V W X Y Z