Song name
# A B C D E F G H I J K L M N O P Q R S T U V W X Y Z

Dave Matthews Band - Butterfly tab

Band:Dave Matthews Band
Song:Butterfly
From The Movie Because Of Winn Dixie

Strumming Patern Is Mostly (Down Up Up) 
Intro/Verse
E:------------------------------------------------|
B:-3---3-3------3-3------3-3------3-3-3-3-3-3-3-3-|
G:-0h2-2-2------x-x------x-x------x-x-x-x-x-x-x-x-|
D:----------0h2-2-2--2h4-4-4------4-4-4-4-4-4-4-4-|
A:----------------------------0h2-2-2-2-2-2-2-2-2-|
E:------------------------------------------------|
   
Chorus
E:---0-0-----0-0------------------------|
B:---0-0-----1-1-------------3-3-3-3----|
G:---0-0-----0-0-----0-0-----2-2-2-2----|
D:---2-2-----2-2-----x-x-----0-0-0-0----|
A:---2-2---3-3-3---2-2-2-----x-x-x-x----|
E:-0-0-0-----------------2-2-2-2-2-2----|
   

Post Chorus
E:------------0----------------|
B:---0-----0--1/3-----3-----3--|
G:---0-----0--0----------------|
D:---0-----0--2/4-----4-----4--|
A:---x--------3/5---3-3--------|
E:-3-3---3----------------5----|

I reccomend Listening To The Song To Work Out The Strumming Patterns Thanks Guys Hope It Helps You Out
Tap to rate this tab
# A B C D E F G H I J K L M N O P Q R S T U V W X Y Z