Song name
# A B C D E F G H I J K L M N O P Q R S T U V W X Y Z

Dave Matthews Band - 27 tab

<><><><><><><><><><><><><><><><><><><><><><><><>
                 # 2 7    /   D A V E    A N D    T I M    7 / 2 8 / 0 7
<><><><><><><><><><><><><><><><><><><><><><><><>
Dave Matthews & Tim Reynolds - #27
7.28.07

*Tim is on slide throughout the song

Tabbed by:Hunter(||)

Tuning:Standard(EADGBe)

Intro (Dave)
-------------------------------------------------|
-------------------------------------------------|
-4p2-0-2------4p2-2h4----4p2-0-0h2----2h4-2-2h4--|
-------------------------------------------------|
-------------------------------------------------|
----------0--------------------------------------|


Verse (just a general idea, play with
        the picking pattern)
------------------------------------|
------------------------------------|
---------2-------------2------------|
-2-------2------2------2------2-----|etc
-2-------0------2------0------2-----|
-0--------------0-------------0-----|


("I'm so lost..."/"I'm so sick...") part
-3----2----------|
-0----3----2-----|
-0----2----2-----|
-0----0----2-----|
-2---------0-----|
-3---------------|

Break
------------------------|
------------------------|
-7---6---5---4---3------| x 2
-x---x---x---x---x------|
-5---4---3---2---1------|
------------------------|

And that's it!
Tap to rate this tab
 
# A B C D E F G H I J K L M N O P Q R S T U V W X Y Z