Song name
# A B C D E F G H I J K L M N O P Q R S T U V W X Y Z

Dave Matthews Band - Round And Round tab

-------------------------------------------------------------------------------
			     Round and Round – Dave Matthews Band
-------------------------------------------------------------------------------
Tabbed by: Conor Sullivan
Email: crssox23@aim.com


I haven’t found a tab of this online yet so I decided to do it myself.  Hope you enjoy.


Tuning: Standard

Main Riff

e|---------------------------------------------|
B|---------------------------------------------|
G|-----4--0--------0-----------0-----0h2---0---|
D|--2-----------2-----------0------------------| x As many times as needed
A|-----------3-----------2---------------------|
E|--------------------3------------------------|


Little Ditty Dave Plays at the End

e|---------------------------------------------|
B|---------------------------------------------|
G|---4------7------5---5/4---0----------0h2-0--|
D|------5-----------------------2/5------------| Then the main riff repeats
A|-------------5-------------------------------|
E|---------------------------------------------|

Tap to rate this tab
# A B C D E F G H I J K L M N O P Q R S T U V W X Y Z