Song name
# A B C D E F G H I J K L M N O P Q R S T U V W X Y Z

Dave Matthews Band - Satellite Simplified tab

Highlighted       Show chord diagrams
--------------------------------------------------------------------------|
--------------------------------------------------------------------------|
--------------------------------------------------------------------------|
-----------8--------6-----5-------3-----5---------------------------------|
---------6--------4-----3-------1-----3------0----------------------------|
-------4------------------------------------------------------------------| 4x
                               pause
Dave says "satellite"

then it repeats

--------------------------------------------------------------------------|
--------------------------------------------------------------------------|
--------------------------------------------------------------------------|
-----------8--------6-----5-------3-----5---------------------------------|
---------6--------4-----3-------1-----3------0----------------------------|
-------4------------------------------------------------------------------|
Lyrics

Satellite in my eyes
Like a diamond in the sky
How I wonder.
Satellite strung from the moon
And the world your balloon
Peeping tom for the mother station

Chorus
G#       C#    A#      D#
Winters cold spring erases
 G#       C#    A#      D#
And the calm away by the storm is chasing
G#       C#    A#      D#
Everything good needs replacing
G#       C#    A#      D#
Look up, look down all around, hey satellite

Repeat intro


--------------------------------------------------------------------------|
--------------------------------------------------------------------------|
--------------------------------------------------------------------------|
-----------8--------6-----5-------3-----5---------------------------------|
---------6--------4-----3-------1-----3------0----------------------------|
-------4------------------------------------------------------------------|

satellite, headlines read
Someones secrets youve seen
Eyes and ears have been
Satellite dish in my yard
Tell me more, tell me more
Whos the king of your satellite castle?

chorus

G#       C#    A#      D#
Winters cold spring erases
 G#       C#    A#      D#
And the calm away by the storm is chasing
G#       C#    A#      D#
Everything good needs replacing
G#       C#    A#      D#
Look up, look down all around, hey satellite

Bridge
      G#               C          C#         D
Rest high above the clouds no resrictions

      G#               C          C#         D
Television we bounce round the world
And while I spend these hours
Five senses reeling,
I laugh about the weathermans satellite eyes.

Verse (play intro)

Satellite in my eyes
Like a diamond in the sky
How I wonder.
Satellite strung from the moon
And the world your balloon
Peeping tom for the mother station

chorus

G#       C#    A#      D#
Winters cold spring erases
 G#       C#    A#      D#
And the calm away by the storm is chasing
G#       C#    A#      D#
Everything good needs replacing
G#       C#    A#      D#
Look up, look down all around, hey satellite


Bridge
    G#               C          C#         D
Rest high above the clouds no resrictions

      G#               C          C#         D
Television we bounce round the world
And while I spend these hours
Five senses reeling,
I laugh about the weathermans satellite eyes.
Tap to rate this tab
 
# A B C D E F G H I J K L M N O P Q R S T U V W X Y Z