Song name
# A B C D E F G H I J K L M N O P Q R S T U V W X Y Z

Dave Matthews Band - The Fly tab

Dave Matthews Band - The Fly
Tabbed and Arranged by: Nick Freeman of the band "Sol Sedano"
Capo 5th (that is because the song is play on that small guitar he plays "shotgun" and 
of you" with.
h = hammer


Intro/Verse (when trying to play along with the song you will be able to feel out how 
each chord needs to be strummed.)
    Am               F              C          Bm
-----0-------------0-x-x-----------0-3---------x-------|
---0h1-----------0h1-x-x-----------1-1---------3-------|
-----2-------------2-2-0-0---------0-0---------4-------|
---0h2-------------3-3-2-0---------2-2---------0-0-----|
--0--0-------------x-x-x-x---------3-3---------2---3-2-|
--x--x---------1---x-x-x-x---------x-x---------x-------|


"You know they didn't every have to love me..."
     C              Bm             Am          F
-----0---------------0-------------0-------0-x-x-x-----|
-----1---------------3-----------0h1-------1-x-x-x-----|
---0-0-------------0-4---------2---2-------2-2-0-0-----|
--2--2-----------0---0-------2---0h2-------3-3-2-0-----|
-3---x---------2-----2-----0-------0-------x-x-x-x-----|
-----x---------------x-------------x-----1-x-x-x-x-----|


"You always said I never missed a note"
            ?            ?            ?         ?
----------0h2------------3------------3---------2---------|
------------3------------4------------4---------3---------|
------------2------------5------------3---------2---------|
------------4------------5------------5---------4---------|
----------0-0-----0h3----3----------3-3---------0-0-1-0---|
------0h2---2----------3-3-----0h3----3-----0h2-2-------3-|


Bridge
             D?            C?            Bm        C?
-----------0h2-------------3-------------0---------3-x-x-x-|
---------3---3-------------1-------------3---------1-x-x-x-|
-----2-------2-----------0-0-----------4-0-------0-0-x-x-x-|
---4---4-----4-------2-----2-------0-----0---------2-2-0-0-|
-------------x-----3---3---3-----2---2---2-----3---3-3-2-0-|
-------------x-------------x-------------x---------x-x-x-x-|


and that's it enjoy!
Tap to rate this tab
# A B C D E F G H I J K L M N O P Q R S T U V W X Y Z