Song name
# A B C D E F G H I J K L M N O P Q R S T U V W X Y Z

Dave Matthews Band - Funny The Way It Is tab

Verse:  Am - G - G - F

E------------------|
B------------------|
G---5---4--4---2---|
D--------------3---|
A---3---2--2---3---|
E---5---3--3---1---|

or

E---0---3---3---1--|
B---1---0---0---1--|
G---2---0---0---2--|
D---2---0---0---3--|
A---0---2---2---3--|
E-------3---3---1--|


Chorus:   C-G-Bminor-F

E------------------|
B------------------|
G---9---4--4---2---|
D--------------3---|
A---7---2--2---3---|
E---8---3--X---1---|

or

E-------------------|
B-------------------|
G---9---4---4---5---|
D-------------------|
A---7---2---2---3---|
E---8---3-----------|

Bridge:

E-----------------------------------------------------|
B-----------------------------------------------------|
G-----------------------------------------------------|
D-------3-3-------------------------------------------|
A-------------3-3---5-5---7-7---8-8---10-10---12-12---|
E--1-1------------------------------------------------|

or

E-------------------------------------------------|
B-------------------------------------------------|
G-------------------------------------0-0---2-2---|
D-------3-3---------0-0---2-2---3-3---------------|
A-------------3-3---------------------------------|
E--1-1--------------------------------------------|
Tap to rate this tab
 
# A B C D E F G H I J K L M N O P Q R S T U V W X Y Z