Song name
# A B C D E F G H I J K L M N O P Q R S T U V W X Y Z

Dave Matthews Band - Seven tab

These are Tim's parts because Dave doesn't play much in this song (at least live)

***DROP D*****

Intro / Bridges

    e|-----------------------------------------------|
    B|--0-0-0---3---2---0-0-0---3---2---0-0-0--------|
    G|--0-0-0---3---2---0-0-0---3---2---0-0-0--------|
    D|-----------------------------------------------|
    A|-----------------------------------------------|
    D|-----------------------------------------------|



Verse (pull off the 5 to the 0 on the D... opposite of hammering)

    e|------------------------    ---------------------------|
    B|------------------------    ---------------------------|
    G|------------------------    ---------------------------|
    D|---5p0-----------------    ----5p0---------------------|
    A|--------2--3--5-------- x2 -----------2--3--5----------|  x2
    D|----------------5-5----    -------------------3-3------|



Chorus

    e|-----------------------------------------------------|
    B|-----------------------------------------------------|
    G|--0-0-0---------------4-5------------------5-4-------|
    D|--0-0-0----5p0--5p0------------5p0--5p0--------------|
    A|-----------------------------------------------------|
    D|--------5----------3------5-5-----------3------5-5---|

    e|-----------------------------------------------------|
    B|-----------------------------------------------------|
    G|----------------------4-5------------------5-4-------|
    D|-----------5p0--5p0------------5p0--5p0--------------|
    A|-----------------------------------------------------|
    D|-------------------3------5-5-----------3------5-5---|


then Tim hits this once:

    e|-------------------------|
    B|-------------------------|
    G|---------------10-12b----|
    D|----5p0--5p0-------------|
    A|-------------------------|
    D|-------------3-----------|


ends on:

    e|-------------------|
    B|-------------------|
    G|-------------------|
    D|----5p0--5p0-------|
    A|-------------------|
    D|-------------3-----|
Tap to rate this tab
# A B C D E F G H I J K L M N O P Q R S T U V W X Y Z