Song name
# A B C D E F G H I J K L M N O P Q R S T U V W X Y Z

Dave Matthews Band - Funny The Way It Is tab

-------------------------------------------------------------------------------
                    Funny The Way It Is - Dave Matthews Band
-------------------------------------------------------------------------------
Tabbed by: gtarking11
Email:     lfiene@mac.com

First tab! I think it's pretty accurate, couldn't find it anywhere else so I took a swing at it.

e|---------------------------------------------------------------------------|
B|---------------------------------------------------------------------------|
G|---------------------------------------------------------------------------|
D|----10h12-10-12/14-12-14/15-15/17-15-14-15-14-12---------------------------|
A|-10----------------------------------------------14--14-14-17-15-12-8/10---|
E|-------------------------------------------------------------------------8-|

e|---------------------------------------|
B|---------------------------------------|
G|---------------------------------------|
D|-12-12/14-12-14-14/17-15-14--15/17--17-|
A|---------------------------14-----15---|
E|---------------------------------------|

I'm least sure about the second-to-last note, C on the 15th fret, but it works.

| /  slide up
| \  slide down
| h  hammer-on
| p  pull-off
| ~  vibrato
| +  harmonic
| x  Mute note
===============================================================================
Tap to rate this tab
# A B C D E F G H I J K L M N O P Q R S T U V W X Y Z