Song name
# A B C D E F G H I J K L M N O P Q R S T U V W X Y Z

Dave Matthews Band - Lie In Our Graves tab

This is the crazy solo by Tim from the Radio City show.  The notes arent difficult, its 
the speed and, well, the speed with which Tim hits them.

Starting at 3:07   just keep this up until
e------------------------------------------------|
B---15-15-15-15-15-15-15-15-15-15-15-------------|
G------------------------------------------------|
D------------------------------------------------|
A------------------------------------------------|
E------------------------------------------------|

Starting at 4:56 you add in the 14, which continues (and fades) until
e---14-14-14-14-14-14-14-14-14-14-14-------------|
B---15-15-15-15-15-15-15-15-15-15-15-------------|
G------------------------------------------------|
D------------------------------------------------|
A------------------------------------------------|
E------------------------------------------------|

Starting at 5:30   (listen for timing)
e15-15-15-15-14-14-14-14-17-17-17-17---15-15-15-15-14-14-14-14-19-19-19-19-|
B--------------------------------------------------------------------------|
G--------------------------------------------------------------------------|
D--------------------------------------------------------------------------|
A--------------------------------------------------------------------------|
E--------------------------------------------------------------------------|

Anything else you hear is the effect of cool pedals and loops that he is using which I 
really figure out.  If you have a loop here is what Dave is playing so you can loop that 
go nuts with all that^^^

e----------------------------------------------------------|
B---------------and occasionally changes to----------------|
G--11--9--7--4--6------------------12--7--6--2--4----------|
D--0---0--0--0--0------------------0---0--0--0--0----------|
A--x---x--x--x--x------------------x---x--x--x--x----------|
E--10--9--7--3--5------------------12--7--5--2--3----------|

Enjoy
Tap to rate this tab
# A B C D E F G H I J K L M N O P Q R S T U V W X Y Z