Song name
# A B C D E F G H I J K L M N O P Q R S T U V W X Y Z

Dave Matthews Band - Lying In The Hands Of God tab

e-15-14-15-14-12---14-14-12-10------15-14-15-12------------10-------|
B------------------------------14---------------------14-14---14----|
G-------------------------------------------------------------------|
D-------------------------------------------------------------------|
A-------------------------------------------------------------------|
E-------------------------------------------------------------------|

e----14-12--14-12--14-12---14-12---12-10---12-10---12-10------------79999b~-|
B--12-----12-----12------12-----10-------10------10------7---------7---------|
G----------------------------------------------------------9--7\5/7----------|
D----------------------------------------------------------------------------|
A----------------------------------------------------------------------------|
E----------------------------------------------------------------------------|

Tabbed using http://www.youtube.com/watch?v=5lji5lvSRc8 around 2:19
Tap to rate this tab
# A B C D E F G H I J K L M N O P Q R S T U V W X Y Z