Song name
# A B C D E F G H I J K L M N O P Q R S T U V W X Y Z

Dave Matthews Band - Write A Song tab

Write A Song
Artist: Dave Matthews Band
Album: Little Red Bird EP

Tuning: Raised B (Capo 7) after Drop D

Contributor: Daniel Schnall

Intro
e|-------------------------|
B|-------------------------|
G|-------------------------|x2
D|--0--3-3/5--3--3/5-3--0--|
A|--0--3-3/5--3--3/5-3--0--|
E|--0--3-3/5--3--3/5-3--0--|

e|---------------------------------------|
B|---------------------------------------|
G|--------0-2-0--------------------------|
D|--0-2-4-------4-0--3-3/5--3--3/5-3--0--|
A|----------------0--3-3/5--3--3/5-3--0--|
E|----------------0--3-3/5--3--3/5-3--0--|

Verse ("You know the kind of song that'll get you high")
e|-----------------------------------------------------|
B|--------------------3-----3-----------------------3--|
G|--------0-2-0-------0-----2--------0-2-0----------2--|
D|--0-2-4-------4-2-0-2-----0--0-2-4------4-2-0-3---0--|
A|--------------------3-----0-------------------3---0--|
E|--------------------------0-------------------3---0--|

(“When the sun don't play and the moon don't shine”)
e|--------------------------------------------------(3)------|
B|--------------------3---------3--------------------3-------|
G|--------0-2-0-------0---------2--------0-2-0-------0-------|
D|--0-2-4-------4-2-0-2---3-3---0--0-2-4-------4-2-0-0--3-3--|
A|--------------------3---3-3---0--------------------x--3-3--|
E|------------------------3-3---0--------------------5--3-3--|

("When you turn it on it's gonna blow your mind")
e|-------------------------------------------(3)--0-0-0--------|
A|--3--------------------3--3---3--3----------3---3/5-3-3-3-3--|
D|--2--------0-2-0-------0--0---0--2----------0---------2h4-2--|
G|--0--0-2-4-------4-2-0-2--x---2--0---2--4---0----------------|
B|--0--------------------3--2---3--0---2--4---x----------------|
E|--0------------------------------0---2--4---5----------------|

Chorus ("Dance and sing")
e|-----------------------------------(3)-(3)-(3)-(3)-(3)--0-0-0--------|
B|--2---2---2---2---2-----------------3---3---3---3---3---3/5-3-3-3-3--|
G|--2---2---2---2---2-------2-4p2-----0---0---0---0---0---------2h4-2--|x3
D|--2---2---2---2---2---2-4-------4---0---0---0---0---0----------------|
A|--0---0---0---0---0-----------------x---x---x---x---x----------------|
E|------------------------------------5---5---5---5---5----------------|

(“And when you get to the end”)
e|-----------------------------------(3)-(3)-(3)-(3)-(3)---------------|
B|--2---2---2---2---2-----------------3---3---3---3---3-------------3--|
G|--2---2---2---2---2-------2-4p2-----0---0---0---0---0-------------2--|
D|--2---2---2---2---2---2-4-------4---0---0---0---0---0---3-5--5-3--0--|
A|--0---0---0---0---0-----------------x---x---x---x---x---3-5--5-3--0--|
E|------------------------------------5---5---5---5---5---3-5--5-3--0--|


Notes:
Jam is the same as the Verse
Tap to rate this tab
# A B C D E F G H I J K L M N O P Q R S T U V W X Y Z