Song name
# A B C D E F G H I J K L M N O P Q R S T U V W X Y Z

Dave Matthews Band - Break For It tab

Break For It (Run While We Can)
Artist: Dave Matthews Band
Album: Unreleased (2006/2007 soundcheck)
http://www.dmbalmanac.com/SongStats.aspx?sid=471

Contributor: Daniel Schnall

Tuning: Standard


Intro/Verse
e|----------5-5-5---------------------------3-3-3-0-0-0-------0------|R
B|----------------6-6-6-------6-------------------------1-1-1---1----|E
G|--2-3-3-3-------------7-7-7---7-5-3-2-2-2-----------------------3--|P
D|-------------------------------------------------------------------|E
A|-------------------------------------------------------------------|A
E|-------------------------------------------------------------------|T

OR

Intro/Verse
e|-----------------------------------------------------------------------------------|R
B|----------10-10-10------------------------------------8-8-8------------------------|E
G|-------------------10-10-10----------10---------------------9-9-9----------9-------|P
D|--7-8-8-8-------------------12-12-12----12-10-8-7-7-7-------------10-10-10---10-8--|E
A|-----------------------------------------------------------------------------------|A
E|-----------------------------------------------------------------------------------|T

Chorus/Jam
e|---------------------|
B|---------------------|
G|--10---10---10---9---|
D|--10---10---10---10--|
A|--8----8----x----x---|
E|------------8----8---|


Notes:
Intro/Verse is actually played by Boyd on violin, Dave doesn't play anything during Intro/Verse
Tap to rate this tab
# A B C D E F G H I J K L M N O P Q R S T U V W X Y Z