Song name
# A B C D E F G H I J K L M N O P Q R S T U V W X Y Z

Dave Matthews Band - Blue Water tab

Blue Water (Blue Water Baboon Farm)
Artist: Dave Matthews Band
Album: Unreleased (featured on Warehouse 8 Vol. 1)
(http://dmbalmanac.com/SongStats.aspx?sid=25)

Tuning: Standard

Intro
e|-----------0--0--|
B|-----------1--0--|
G|-----------0--0--|
D|----2/4\2--2--2--|
A|--2--------3--2--|
E|-----------3--0--|

Verse
e|--0---0--|
B|--0---1--|
G|--0---0--|
D|--2---2--|
A|--2---3--|
E|--0---3--|
Tap to rate this tab
 
# A B C D E F G H I J K L M N O P Q R S T U V W X Y Z