Song name
# A B C D E F G H I J K L M N O P Q R S T U V W X Y Z

Dave Matthews Band - Squirm tab

----------------------------------------------------------------------------
			     Squirm - Dave Matthews Band
----------------------------------------------------------------------------
Tabbed by:DMB2Step
Email:ggesford@gmail.com

Tuning: Raised D (capo on th 10th fret)

all frets relative to capo

Intro/verse
Lots of quick little strums in between all the chords throughout the song
d|-----------------------------------------------------------------|
A|-----------------------------------------------------------------|
F|-----------------------------------------------------------------|
C|-------5-4---4-3---3-2---2-1---1-------3---3-5-------------------|
G|---------------------------------1---1-3---3-5-------------------|
D|---3---3-3---3-3---3-3---3-3---3-3---3-1---1-3-------------------|

"Drum beats louder"                            ^
When going into this, the first slide comes right from the verse
Do one slide for every time he says "drum beats louder"
d|-----------------------------------------------------------------|
A|-----------------------------------------------------------------|
F|-----------------------------------------------------------------|
C|---3/5------3/5--------------------------------------------------|
G|---3/5------3/5--------------------------------------------------|
D|---1/3----0-1/3--------------------------------------------------|

Chprus "Open up your head"

d|--(1)-----------(1)----------------------------------------------|
A|--(1)-----1-----(1)----------------------------------------------|
F|---2------0------4-----------------------------------------------|
C|---3------2------5------------------------------------0-----0--3-|
G|---3------3------5------------------1-----1--3--1--3-----3-------|
D|---1-------------3------0--3--1--3-----3-------------------------|

During one part of the song after drum beats louder he stums this
chord until it goes back to drum beats louder, 
d|-----------------------------------------------------------------|
A|-----------------------------------------------------------------|
F|----4------------------------------------------------------------|
C|----5------------------------------------------------------------|
G|----5------------------------------------------------------------|
D|----3------------------------------------------------------------|
Tap to rate this tab
 
# A B C D E F G H I J K L M N O P Q R S T U V W X Y Z