Song name
# A B C D E F G H I J K L M N O P Q R S T U V W X Y Z

Dave Matthews Band - Heathcliffs Haiku Warriors tab

Heathcliff's Haiku Warriors
Artist: Dave Matthews

http://dmbalmanac.com/SongStats.aspx?sid=35

Contributor: Daniel Schnall

Intro
e|-----|
B|--3--|
G|--4--|x8
D|-----|
A|--2--|
E|-----|
       
Verse
e|---------------------------|
B|--3--3--3--3--3--3--0---2--|
G|--4--4--4--4--2--2--0---2--|
D|---------------------------|
A|--2--2--2--2------------0--|
E|--------------2--2--3------|
                                                                             
Chorus
e|--------------------------|
B|--7--7--5--2--4--4--4--4--|
G|--6--6--4--1--4--4--4--4--|
D|--------------------------|
A|--5--5--4--1--2--2--2--2--|
E|--------------------------|
                                                                    
Bridge
e|--------6-------------------------------------------------|
B|--7--5--6--4-------2--------------------------------------|
G|--6--4-----2-----3-------4-----4--4-4-4--2-2-2--2-2-2--1--|
D|--------4--------------2-----2----5-5-5--0-0-0--3-3-3--2--|
A|--5--4-----2---1-----0------------------------------------|
E|---------------------------4------3-3-3--2-2-2--1-1-1--0--|
                                                         
End
e|---------------------------|
B|---------------------------|
G|------4-----4--4--2--2--1--|
D|----2-----2----5--0--3--2--|
A|--0---------------------2--|
E|--------4------3--2--1--0--|

Notes:
Dave fingerpicks the whole song
Tap to rate this tab
 
# A B C D E F G H I J K L M N O P Q R S T U V W X Y Z