Song name
# A B C D E F G H I J K L M N O P Q R S T U V W X Y Z

Dave Matthews Band - Granny tab

Granny
Dave Matthew Band
Before These Crowded Streets


(intro)
                  D
e--------------------------------|
B--5h7-7-7-5-0-0--3/5-3----------|
G--7---7-7-7-7-7--2/4-2----------|  {x4}
D--------------------------------|
A------------------------0-0-0---|
E------------------------3-2-0---|

alright now the verses are a lot like the intro theres just a slight difference in every 
bar..

(verse)
                  D
e--------------------------------|-------------------------|
B--5h7-7-7-5-0-0--3/5-3----------|-5h7-7-5--3/5-3----------|
G--7---7-7-7-7-7--2/4-2----------|-7-7-7-7--2/4-2----------|
D--------------------------------|-------------------------|  {x2}
A------------------------0-0-0---|-----------------0-0-0---|
E------------------------3-2-0---|-----------------3-2-0---|

(pre-corus)

 (you need big hands for this part...)

   D
e--2-----------|
B--3-----------|
G--2-----------|
D-------10-7---|  {x2}
A-------8--5---|
E-------6--3---|

(chorus)

e---------------------------------------|
B---------------------------------------|
G-----------------------------1--9------|
D---------------------------------------|
A--------0--0--0--0--0--0--0------------|
E--7--5--7--2--5--7--7--2--5--1--8------|

then back to the verse

(verse)
                  D
e--------------------------------|-------------------------|
B--5h7-7-7-5-0-0--3/5-3----------|-5h7-7-5--3/5-3----------|
G--7---7-7-7-7-7--2/4-2----------|-7-7-7-7--2/4-2----------|
D--------------------------------|-------------------------|  {x2}
A------------------------0-0-0---|-----------------0-0-0---|
E------------------------3-2-0---|-----------------3-2-0---|


(pre-corus)

   D
e--2-----------|
B--3-----------|
G--2-----------|
D-------10-7---|  {x2}
A-------8--5---|
E-------6--3---|

(chorus)

e---------------------------------------|
B---------------------------------------|
G-----------------------------1--9------|
D---------------------------------------|
A--------0--0--0--0--0--0--0------------|
E--7--5--7--2--5--7--7--2--5--1--8------|


and then 1 more verse to finish it off..

(verse)
                  D
e--------------------------------|-------------------------|
B--5h7-7-7-5-0-0--3/5-3----------|-5h7-7-5--3/5-3----------|
G--7---7-7-7-7-7--2/4-2----------|-7-7-7-7--2/4-2----------|
D--------------------------------|-------------------------|  {x2}
A------------------------0-0-0---|-----------------0-0-0---|
E------------------------3-2-0---|-----------------3-2-0---|

!!!this is only the part that dave plays.. this is just the rhythm... Tim Reynolds plays 
same thing for the song except for his solo in which dave is playing the pre chorus and chorus...
Tap to rate this tab
# A B C D E F G H I J K L M N O P Q R S T U V W X Y Z