Song name
# A B C D E F G H I J K L M N O P Q R S T U V W X Y Z

Dave Matthews Band - #41 tab

main riff  
  Am    Bm    Em    D
e----------2----------2----
b---1------3----------3----
g---2------4----------2>4>2
d---2------4-----2---------
a----------2-----2---------
E----------2-----0---------

chorus
   G    D    C
e--3----2---------
b-------3----1>0--
g-------2---------
d------------2----
a--2---------3----
E--3--------------

            
Outro: Just the top 3 strings. Gently.

       1e|-10--10-10---7-8-7---5--5-5---5--5-5-|
       2B|--8---8--8---8-8-8---8--8-8---7--7-7-|
       3G|--7---7--7---7-7-7---7--7-7---7--7-7-|

questions?
email me at john_4618@hotmail.com
Tap to rate this tab
# A B C D E F G H I J K L M N O P Q R S T U V W X Y Z