Song name
# A B C D E F G H I J K L M N O P Q R S T U V W X Y Z

Dave Matthews Band - I Did It tab

I found this in a Guitar One magazine.

Gtr. 1 Slight Distortion

       
E|-----8b\--------------|-------------------------------|
B|-----7b\--------------|-------------------------------|
G|---------x-x-5--x-x-7-|-x-x-9--x-x-5--x-x-7--x-x-x-x--|
D|---------x-x-x--x-x-x-|-x-x-x--x-x-x--x-x-x--x-x-x-x--|
A|-5-5-----x-x-3--x-x-5-|-x-x-7--x-x-3--x-x-5--x-x-x-x--|
E|----------------------|-------------------------------|

                                                        (all of this) x2
E|-----8b\--------------|-----------------------|
B|-----7b\--------------|-----------------------|
G|---------x-x-5--x-x-7-|-x-x-9-x-x-5-x-x-7--7--|
D|---------x-x-x--x-x-x-|-x-x-x-x-x-x-x-x-x--x--|
A|-5-5-----x-x-3--x-x-5-|-x-x-7-x-x-3-x-x-5--5--|
E|----------------------|-----------------------|


E|--------------------------------------|
B|--------------------------------------|
G|--------------------------------------|  x6
D|--7-7-7-7--7-7-7-7--7-7-7-7--7-7-7-7--|
A|--x-x-x-x--x-x-x-x--x-x-x-x--x-x-x-x--|
E|--5-5-5-5--5-5-5-5--5-5-5-5--5-5-5-5--|


E|-----------------------------------------|
B|-----------------------------------------|
G|-11-11-11-11-11-11-11-11-11-11-11-11-11--|  x2
D|-11-11-11-11-11-11-11-11-11-11-11-11-11--|
A|-9--9--9--9--9--9--9--9--9--9--9--9--9---|
E|-----------------------------------------|


E|----------------------------|      E|----------------------------|   
B|----------------------------|      B|----------------------------|
G|-8-8-8-8-8-8-8-8-8-8-8-8-8--|  x2  G|-6-6-6-6-6-6-6-6-6-6-6-6-6--|
D|-8-8-8-8-8-8-8-8-8-8-8-8-8--|      D|-6-6-6-6-6-6-6-6-6-6-6-6-6--|
A|-6-6-6-6-6-6-6-6-6-6-6-6-6--|      A|-4-4-4-4-4-4-4-4-4-4-4-4-4--|
E|----------------------------|      E|----------------------------|


E|---------------------------|       
B|---------------------------|       
G|-4-4-4-4-4-4-4-4-4-4-4-4-4-|  x2   
D|-4-4-4-4-4-4-4-4-4-4-4-4-4-|       
A|-2-2-2-2-2-2-2-2-2-2-2-2-2-|       
E|---------------------------|       


E|-----------------|------------------|
B|-----------------|------------------|
G|-------4---------|------------------|  x2
D|---4-----7-----5-|-4-----4-5-4-5----|
A|-----7-----5-----|---4-5------------|
E|-7-----------5---|---------------5--|

*If you find any mistakes, email me at tnek46@hotmail.com
     Have fun!
Tap to rate this tab
# A B C D E F G H I J K L M N O P Q R S T U V W X Y Z