Song name
# A B C D E F G H I J K L M N O P Q R S T U V W X Y Z

Dave Matthews Band - Alligator Pie tab

by greg

standard tuning
intro/verse
e---------------0-0------------------------------------0-0----1---3--|
b---------------0-0------------------------------------0-0----1---3--|
g---------5-4/2------------5-4/2---2----4--------5-4/2---------2---4-|
d----------------------------------3----5----------------------3---5-|
a----------------------------------3----5----------------------3---5-|
e----3/5--------------3/5--------1-1--3-3----3/5---------------1---3-|


jam
e-----------------------------------------|
b-----------------------------------------|
g----5/7-7-5-7-9-7------------------------|
d----x/x-x-x-x-x-x--x3--3-5---------------|
a----3/5-5-3-5-7-5------3-5---------------|
e-----------------------1-3---------------|


"All the things we know and... "
e-------3------------2---------------------|
b---2------3--2----------2-----------------|
g---2------4--2----------2-----------------|
d---2------4--2--x2------2----x3-----------|
a-------2--2---------2---------------------|
e-------3------------3---------------------|
Tap to rate this tab
# A B C D E F G H I J K L M N O P Q R S T U V W X Y Z