Song name
# A B C D E F G H I J K L M N O P Q R S T U V W X Y Z

Dave Matthews Band - Crush tab

Dave Matthews Band - Crush

Drop D Tuning
DADGBE

I tabbed this out b/c the other tab (version 1) just was really confusing to me to
but the chords were pretty much spot on, so I tabbed this out and added times (from the
CD version) and tabbed virtually every section out since he plays them out of the 
"order" so much.....this tab doesn't include the electric guitar parts.

I used this YOUTUBE video to help me out:
http://www.youtube.com/watch?
v=_w4IAqfSlMI&feature=PlayList&p=DC30F1C9FF15B795&playnext_from=PL&playnext=1&index=3

INTRO - Part 1
  :02  :05 --> strum this chord until :21
e|-----(0)-----|
B|-3----3------|
G|------4------|
D|-4----4------|
A|-2----2------|
D|-------------|
   ^ - played fingerstyle

VERSE
  :21     :23                                     :33
e|(0)-----------------------------------------------------|
B|-3-------3-----------3--------2-------------------------|
G|-4-------0-----------2--------2----(0)-4--(0)-4--5--(4)-|
D|-4-------4-----------0--------0-----5--5---5--5--5---5--|
A|-2-------2-----------x--------x-----x--x---x--x--3---2--|
D|---------------------2--------2-----3--3---5--5---------|
                       ^
*Be sure to always hit this single bass note 1st before strumming the chord*

  :36     :40                                     :50
e|(0)-----------------------------------------------------|
B|-3-------3-----------3--------2-------------------------|
G|-4-------0-----------2--------2----(0)-4--(0)-4--5--(4)-|
D|-4-------4-----------0--------0-----5--5---5--5--5---5--|
A|-2-------2-----------x--------x-----x--x---x--x--3---2--|
D|---------------------2--------2-----3--3---5--5---------|

  :55                   1:05                1:20
e|(0)-----------------------------------------------------|
B|-3----3---3-----2---------------------------------------|
G|-4----0---2-----2-----12--12--12--12--------12-12--5--4-|
D|-4----4---0-----0-----10--12--10--9---then--10-12--5--2-|
A|-2----2---x-----x-----8---10--10--10--------8--10--3--2-|
D|----------2-----2-------------------------------------2-|
                        [play this 3x]

PRECHORUS
   1:28    1:33   1:39     1:41   1:46  1:51
e|-------------------------------------------|
B|-------------------------------------------|
G|--7-------9------5---4---7-------9-----5---|
D|--7-------9------5---2---7-------9-----5---|
A|--5-------7------3---2---5-------7-----3---|
D|--5-------7----------2---5-------7---------|

                         CHORUS
  1:54   1:59            2:07                  2:22
e|(0)---------------------------------------------------------|
B|-3-----3-----3----2-----------------------------------------|
G|-4-----0-----2----2----12--12--12--12--------12--12--5--4---|
D|-4-----4-----0----0----10--12--10--9---then--10--12--5--2---|
A|-2-----2-----x----x----8---10--10--10--------8---10--3--2---|
D|-------------2----2-------------------------------------2---|
                        [play 3 times]

BRIDGE
   2:29
e|---------------------------------------------------------------------|
B|---------------------------------------------------------------------|
G|---------------------------------------------------------------------|
D|-55--33--22--------55--33--22----55-33-1212--1010--99--88--55-33-22--|
A|-55--33--22--------55--33--22----55-33-1212--1010--99--88--55-33-22--|
D|-55--33--22-12s<<--55--33--22----55-33-1212--1010--99--88--55-33-22--|
 **Be sure to mute/scratch the bottom 3 strings between each "power" chord**

  2:53    2:58        3:05   3:10   3:16        3:23  3:25
e|------------------------------------------(0)------------------|
B|-------------------------------------------3---3-----3----3----|
G|-7------9-----5--4---7-----9------5---(4)--4---0-----2----2----|
D|-7------9-----5--2---7-----9------5----5---4---4-----0----0----|
A|-5------7-----3--2---5-----7------3----2---2---2-----x----x----|
D|-5------7--------2---5-----7-------------------------2----2----|
                                    How..I...love you

Play/strum 7-8 times until sound fades out...
e|------------------|
B|------------------|
G|-12--12--12--12---|
D|-10--12--10--9----|
A|-8---10--10--10---|
D|------------------|
Tap to rate this tab
 
# A B C D E F G H I J K L M N O P Q R S T U V W X Y Z