Song name
# A B C D E F G H I J K L M N O P Q R S T U V W X Y Z

Dave Matthews Band - The Space Between tab

<><><><><><><><><><><><><><><><><><><><><><><><><><><><><><><><><><><><><><>

              T H E   S P A C E   B E T W E E N /  D M B

<><><><><><><><><><><><><><><><><><><><><><><><><><><><><><><><><><><><><><>
Tabbed by:Hunter


Tuning:standard

e|----------------------------------------------------9------9-------9-----|
B|------------------------------------------------------10-----10------10--|
G|-1-1-1-2~---1-1-1-2~---1-1-1-2~---1-1-1-2~---1-1-1-------9------9-------9|
D|-2-2-2-0~---2-2-2-0~---2-2-2-0~---2-2-2-0~---2-2-2-----------------------|
A|-2-2-2-0~---2-2-2-0~---2-2-2-0~---2-2-2-0~---2-2-2-----------------------|
E|-4-4-4-2~---4-4-4-2~---4-4-4-2~---4-4-4-2~---4-4-4-----------------------|

e|-9h10---(repeat the riff on the bottom three strings 6 times)------------|
B|-------------------------------------------------------------------------|
G|-------------------------------------------------------------------------|
D|-------------------------------------------------------------------------|
A|-------------------------------------------------------------------------|
E|-------------------------------------------------------------------------|

 IMPORTANT NOTE : IN THE INTRO,YOU CAN PLAY IT WITHOUT THE 4'S BECAUSE ITS A LOT EASIER 
PLAY BUT IF YOU WANT TO PLAY IT JUST LIKE DAVE INCLUDE THE 4'S  AND   H =  HAMMER  IF 
DIDNT KNOW
Tap to rate this tab
# A B C D E F G H I J K L M N O P Q R S T U V W X Y Z