Song name
# A B C D E F G H I J K L M N O P Q R S T U V W X Y Z

Dave Matthews Band - Lying In The Hands Of God tab

I'm really not sure about the tuning in this song, so I just stuck with Standard.

First Solo
Tim uses a pinky slide for this part, so it sounds really twangy.

e|------------------------|
B|------------------------|
G|-4----------------------|
D|----4--2/5---4----2-----|
A|----------------5---2/4-|
E|------------------------|


End Solo
He bends a lot on this part.

e|-14b-14-14b-14-14b-14-12---14b-14-12---------14b-14-14b-14-12------------|
B|-------------------------------------14b-14--------------------14-14-14b-|
G|-------------------------------------------------------------------------|
D|-------------------------------------------------------------------------|
A|-------------------------------------------------------------------------|
E|-------------------------------------------------------------------------|

e|--------14-12----14-12--14-12--------14-12-----14-12-----12-10-----------|
B|-14-12---------12-----12-----12-14-12-----14-12-----12-10-----10-8p7-5---|
G|-----------------------------------------------------------------------7-|
D|-------------------------------------------------------------------------|
A|-------------------------------------------------------------------------|
E|-------------------------------------------------------------------------|

e|------7-9-10-|
B|-----7-------|
G|-6-7---------|
D|-------------|        After tapping the 12 on the b he lets 
A|-------------|        it ring to 0. So it's kind of a pull off.
E|-------------|


That's pretty much it. Simple, fun, and a bit challenging. Have fun with it!
Tap to rate this tab
 
# A B C D E F G H I J K L M N O P Q R S T U V W X Y Z