Song name
# A B C D E F G H I J K L M N O P Q R S T U V W X Y Z

Dave Matthews Band - Ants Marching tab

----------------------------------------------------------------------------
		     Ants Marching - Dave Matthews band
----------------------------------------------------------------------------
Tabbed by:CapoedOut
Tuning:Standard

-2-------------3-------------|
-3---------------------------|
-2---------------------------|
---0-3/4-0-3/4---0-4/5-4-4/5-|
---------------2-------------|
---------------3-------------|

That's most of the song. The "when all the little ants are marching" part is different 
this still works
Tap to rate this tab
# A B C D E F G H I J K L M N O P Q R S T U V W X Y Z