Song name
# A B C D E F G H I J K L M N O P Q R S T U V W X Y Z

Dave Matthews Band - 41 tab

-------------------------------------------------------------------------------
     #41- DMB (Crash)
-------------------------------------------------------------------------------
Tabbed by:_d_r_
Email:Dricculli@gmail.com
Tuning: Standard

hey guys this my first tab and its of the instrumental solo for #41 from DMB's Crash-
**some quick notes-
-i stopped after the flute solo because the reason all the diff solos sound so cool 
is because they all vary on the same notes, and frankly, if you play every single one on 
it'll get kinda boring after a while
-its pretty close, NOT EXACT but definitely very passable
-i did this on acoustic itd probs work just as well electric if you want
-listen to the song for rhythm
-vibratos and increasing and decreasing volume help a lot
-where it says 10(x12*) they play that note a lot with a lot of rhythm behind it so 
to song for that part
-i broke up where the violin ends and the flute begins with the | if it helps any
-good luck! :)

-----------------------------------------------------------|
-12~~-12-12-12-10-h12-12-12-12~~-10--h12-12-12-12~~--------|
-----------------------------------------------------------|
-----------------------------------------------------------|
-----------------------------------------------------------|
-----------------------------------------------------------|


-----------------------------------------------------------|
-12~~-10-10-12~~--12-----13-12-10--------------10----12----|
----------------------------------12~~-9-11-12-------------|
---------------------12---------------------------12---12--|
-----------------------------------------------------------|
-----------------------------------------------------------|


-------/10(x12*)--7--8-10-8-7------------------------------|
-12-10------------------------10-8-------------------------|
-----------------------------------9-----------------------|
-----------------------------------------------------------|
-----------------------------------------------------------|
-----------------------------------------------------------|


-----------------------------------------------------------|
------------------------------------------10-12-13-12-10---|
-9--11-12--11----9-11-12--11----9--11--12------------------|
-----------------------------------------------------------|
-----------------------------------------------------------|
-----------------------------------------------------------|


--------------------------10~~-10-7-8-----------------------|
-----------------------12------------8--8--10--12-8h10-8-10-|
-12-11-9-\7---7-h9-/12--------------------------------------|
------------------------------------------------------------|
------------------------------------------------------------|
------------------------------------------------------------|


-10-8--------|---------------------------------------------|
------12--10-|-12h13-12-10---12h13-12-10---12h13-12-10-12--|
-------------|---------------------------------------------|
-------------|---------------------------------------------|
-------------|---------------------------------------------|
-------------|---------------------------------------------|

----------------------10~~---------------------------------|
-10--8-10~~--13-12-10-----10------------12-13-12-----------|
----------------------------12-11-/14-14--------14-12-/11--|
-----------------------------------------------------------|
-----------------------------------------------------------|
-----------------------------------------------------------|

-------||-10----10---7--8--7--5---5---5--5--5--||-----10---|
-/9-/7-||-8-----8----8--8--8--8---8---7-/8--7--||-----8----|
-------||-7-----7----7--7--7--7---7---7--7--7--||-x2--7----|
-------||--------------------------------------||----------|
-------||--------------------------------------||----------|
-------||--------------------------------------||----------|


ok cool! just have fun with it! DMB's a kickass band
questions/comments-dricculli@gmail.com
Tap to rate this tab
 
# A B C D E F G H I J K L M N O P Q R S T U V W X Y Z