Song name
# A B C D E F G H I J K L M N O P Q R S T U V W X Y Z

Dave Matthews Band - Alligator Pie tab

By oded
Verse
e|----------5--|------------0---0--|
B|----------5--|------------1---3--|
G|--2-5-4p2-5--|--2-5-4p2---0---0--|
D|----------7--|------------2---4--|
A|----------7--|----------3-3-5-5--|
E|----------5--|-------------------|

e|----------5--|-0-0-0-0-0-0-|
B|----------5--|-1-1-1-3-3-3-|
G|--2-5-4p2-5--|-0-0-0-0-0-0-|
D|----------7--|-2-2-2-4-4-4-|
A|----------7--|-3-3-3-5-5-5-|
E|----------5--|-------------|

Jam
e|--2-2-2-2-2-2-x-2-2-2-2-2-2-2-x-2-2-2-2-|
B|--3-3-3-3-3-3-x-3-3-3-3-3-3-3-x-3-3-3-3-|
G|--2-2-2-2-0-2-4-2-2-2-2-2-0-2-4-2-2-2-2-|
D|--0-0-0-0-0-0-0-0-0-0-0-0-0-0-0-0-0-0-0-|
A|----------------------------------------|
E|----------------------------------------|

e|--2-2-2-2-2-2-x-2-|-0-0-0-0-0-0-|
B|--3-3-3-3-3-3-x-3-|-1-1-1-3-3-3-|
G|--2-2-2-2-0-2-4-2-|-0-0-0-0-0-0-|
D|--0-0-0-0-0-0-0-0-|-2-2-2-4-4-4-|
A|------------------|-3-3-3-5-5-5-|
E|------------------|-------------|

Bridge
e|--0---2---0---0--|
B|--0---3---2---0--|
G|--1---2---2---1--|x2
D|--2---0---2---2--|
A|--2-------0---2--|
E|--0-----------0--|

e|--2---0---2---0--|
B|--3---0---3---0--|
G|--2---1---2---1--|
D|--0---2---0---2--|
A|------2-------2--|
E|------0-------0--|
Tap to rate this tab
# A B C D E F G H I J K L M N O P Q R S T U V W X Y Z